  0
SECTION
  2
HEADER
  9
$ACADVER
  1
AC1015
  9
$ACADMAINTVER
 70
     6
  9
$DWGCODEPAGE
  3
ANSI_1254
  9
$INSBASE
 10
0.0
 20
0.0
 30
0.0
  9
$EXTMIN
 10
0.0
 20
0.0
 30
0.0
  9
$EXTMAX
 10
279.4
 20
215.9
 30
0.0
  9
$LIMMIN
 10
0.0
 20
0.0
  9
$LIMMAX
 10
279.4
 20
215.9
  9
$ORTHOMODE
 70
     0
  9
$REGENMODE
 70
     1
  9
$FILLMODE
 70
     1
  9
$QTEXTMODE
 70
     0
  9
$MIRRTEXT
 70
     1
  9
$LTSCALE
 40
1.0
  9
$ATTMODE
 70
     1
  9
$TEXTSIZE
 40
3.5
  9
$TRACEWID
 40
1.0
  9
$TEXTSTYLE
  7
Standard
  9
$CLAYER
  8
0
  9
$CELTYPE
  6
ByLayer
  9
$CECOLOR
 62
   256
  9
$CELTSCALE
 40
1.0
  9
$DISPSILH
 70
     0
  9
$DIMSCALE
 40
1.0
  9
$DIMASZ
 40
3.5
  9
$DIMEXO
 40
1.0
  9
$DIMDLI
 40
3.75
  9
$DIMRND
 40
0.0
  9
$DIMDLE
 40
0.0
  9
$DIMEXE
 40
1.0
  9
$DIMTP
 40
0.0
  9
$DIMTM
 40
0.0
  9
$DIMTXT
 40
3.5
  9
$DIMCEN
 40
2.5
  9
$DIMTSZ
 40
0.0
  9
$DIMTOL
 70
     0
  9
$DIMLIM
 70
     0
  9
$DIMTIH
 70
     1
  9
$DIMTOH
 70
     1
  9
$DIMSE1
 70
     0
  9
$DIMSE2
 70
     0
  9
$DIMTAD
 70
     1
  9
$DIMZIN
 70
     0
  9
$DIMBLK
  1

  9
$DIMASO
 70
     1
  9
$DIMSHO
 70
     1
  9
$DIMPOST
  1

  9
$DIMAPOST
  1

  9
$DIMALT
 70
     0
  9
$DIMALTD
 70
     3
  9
$DIMALTF
 40
0.0393700787
  9
$DIMLFAC
 40
1.0
  9
$DIMTOFL
 70
     1
  9
$DIMTVP
 40
0.0
  9
$DIMTIX
 70
     0
  9
$DIMSOXD
 70
     0
  9
$DIMSAH
 70
     0
  9
$DIMBLK1
  1

  9
$DIMBLK2
  1

  9
$DIMSTYLE
  2
ISO-25
  9
$DIMCLRD
 70
     0
  9
$DIMCLRE
 70
     0
  9
$DIMCLRT
 70
     0
  9
$DIMTFAC
 40
1.0
  9
$DIMGAP
 40
1.524
  9
$DIMJUST
 70
     0
  9
$DIMSD1
 70
     0
  9
$DIMSD2
 70
     0
  9
$DIMTOLJ
 70
     0
  9
$DIMTZIN
 70
     0
  9
$DIMALTZ
 70
     0
  9
$DIMALTTZ
 70
     0
  9
$DIMUPT
 70
     0
  9
$DIMDEC
 70
     2
  9
$DIMTDEC
 70
     2
  9
$DIMALTU
 70
     2
  9
$DIMALTTD
 70
     3
  9
$DIMTXSTY
  7
Standard
  9
$DIMAUNIT
 70
     0
  9
$DIMADEC
 70
     2
  9
$DIMALTRND
 40
0.0
  9
$DIMAZIN
 70
     0
  9
$DIMDSEP
 70
    44
  9
$DIMATFIT
 70
     3
  9
$DIMFRAC
 70
     0
  9
$DIMLDRBLK
  1

  9
$DIMLUNIT
 70
     2
  9
$DIMLWD
 70
    -2
  9
$DIMLWE
 70
    -2
  9
$DIMTMOVE
 70
     0
  9
$LUNITS
 70
     2
  9
$LUPREC
 70
     2
  9
$SKETCHINC
 40
1.0
  9
$FILLETRAD
 40
10.0
  9
$AUNITS
 70
     0
  9
$AUPREC
 70
     2
  9
$MENU
  1
.
  9
$ELEVATION
 40
0.0
  9
$PELEVATION
 40
0.0
  9
$THICKNESS
 40
0.0
  9
$LIMCHECK
 70
     0
  9
$CHAMFERA
 40
0.0
  9
$CHAMFERB
 40
0.0
  9
$CHAMFERC
 40
0.0
  9
$CHAMFERD
 40
0.0
  9
$SKPOLY
 70
     0
  9
$TDCREATE
 40
2458985.698561701
  9
$TDUCREATE
 40
2458985.573561701
  9
$TDUPDATE
 40
2458985.698562037
  9
$TDUUPDATE
 40
2458985.573562037
  9
$TDINDWG
 40
0.0000000116
  9
$TDUSRTIMER
 40
0.0000000116
  9
$USRTIMER
 70
     1
  9
$ANGBASE
 50
0.0
  9
$ANGDIR
 70
     0
  9
$PDMODE
 70
     0
  9
$PDSIZE
 40
-1.0
  9
$PLINEWID
 40
0.0
  9
$SPLFRAME
 70
     0
  9
$SPLINETYPE
 70
     6
  9
$SPLINESEGS
 70
     8
  9
$HANDSEED
  5
EB
  9
$SURFTAB1
 70
     6
  9
$SURFTAB2
 70
     6
  9
$SURFTYPE
 70
     6
  9
$SURFU
 70
     6
  9
$SURFV
 70
     6
  9
$UCSBASE
  2

  9
$UCSNAME
  2

  9
$UCSORG
 10
0.0
 20
0.0
 30
0.0
  9
$UCSXDIR
 10
1.0
 20
0.0
 30
0.0
  9
$UCSYDIR
 10
0.0
 20
1.0
 30
0.0
  9
$UCSORTHOREF
  2

  9
$UCSORTHOVIEW
 70
     0
  9
$UCSORGTOP
 10
0.0
 20
0.0
 30
0.0
  9
$UCSORGBOTTOM
 10
0.0
 20
0.0
 30
0.0
  9
$UCSORGLEFT
 10
0.0
 20
0.0
 30
0.0
  9
$UCSORGRIGHT
 10
0.0
 20
0.0
 30
0.0
  9
$UCSORGFRONT
 10
0.0
 20
0.0
 30
0.0
  9
$UCSORGBACK
 10
0.0
 20
0.0
 30
0.0
  9
$PUCSBASE
  2

  9
$PUCSNAME
  2

  9
$PUCSORG
 10
0.0
 20
0.0
 30
0.0
  9
$PUCSXDIR
 10
1.0
 20
0.0
 30
0.0
  9
$PUCSYDIR
 10
0.0
 20
1.0
 30
0.0
  9
$PUCSORTHOREF
  2

  9
$PUCSORTHOVIEW
 70
     0
  9
$PUCSORGTOP
 10
0.0
 20
0.0
 30
0.0
  9
$PUCSORGBOTTOM
 10
0.0
 20
0.0
 30
0.0
  9
$PUCSORGLEFT
 10
0.0
 20
0.0
 30
0.0
  9
$PUCSORGRIGHT
 10
0.0
 20
0.0
 30
0.0
  9
$PUCSORGFRONT
 10
0.0
 20
0.0
 30
0.0
  9
$PUCSORGBACK
 10
0.0
 20
0.0
 30
0.0
  9
$USERI1
 70
     0
  9
$USERI2
 70
     0
  9
$USERI3
 70
     0
  9
$USERI4
 70
     0
  9
$USERI5
 70
     0
  9
$USERR1
 40
0.0
  9
$USERR2
 40
0.0
  9
$USERR3
 40
0.0
  9
$USERR4
 40
0.0
  9
$USERR5
 40
0.0
  9
$WORLDVIEW
 70
     1
  9
$SHADEDGE
 70
     3
  9
$SHADEDIF
 70
    70
  9
$TILEMODE
 70
     1
  9
$MAXACTVP
 70
    64
  9
$PINSBASE
 10
0.0
 20
0.0
 30
0.0
  9
$PLIMCHECK
 70
     0
  9
$PEXTMIN
 10
1.0000000000E+20
 20
1.0000000000E+20
 30
1.0000000000E+20
  9
$PEXTMAX
 10
-1.0000000000E+20
 20
-1.0000000000E+20
 30
-1.0000000000E+20
  9
$PLIMMIN
 10
0.0
 20
0.0
  9
$PLIMMAX
 10
420.0
 20
297.0
  9
$UNITMODE
 70
     0
  9
$VISRETAIN
 70
     1
  9
$PLINEGEN
 70
     0
  9
$PSLTSCALE
 70
     1
  9
$TREEDEPTH
 70
  3020
  9
$CMLSTYLE
  2
Standard
  9
$CMLJUST
 70
     0
  9
$CMLSCALE
 40
20.0
  9
$PROXYGRAPHICS
 70
     1
  9
$MEASUREMENT
 70
     1
  9
$CELWEIGHT
370
    -1
  9
$ENDCAPS
280
     0
  9
$JOINSTYLE
280
     0
  9
$LWDISPLAY
290
     1
  9
$INSUNITS
 70
     4
  9
$HYPERLINKBASE
  1

  9
$STYLESHEET
  1

  9
$XEDIT
290
     1
  9
$CEPSNTYPE
380
     0
  9
$PSTYLEMODE
290
     1
  9
$FINGERPRINTGUID
  2
{fd748ed5-adf1-42fc-bc92-7bb79c46c002}
  9
$VERSIONGUID
  2
{FAEB1C32-E019-11D5-929B-00C0DF256EC4}
  9
$EXTNAMES
290
     1
  9
$PSVPSCALE
 40
0.0
  9
$OLESTARTUP
290
     0
  0
ENDSEC
  0
SECTION
  2
CLASSES
  0
CLASS
  1
ACDBDICTIONARYWDFLT
  2
AcDbDictionaryWithDefault
  3
ObjectDBX Classes
 90
        0
280
     0
281
     0
  0
CLASS
  1
VISUALSTYLE
  2
AcDbVisualStyle
  3
ObjectDBX Classes
 90
     4095
280
     0
281
     0
  0
CLASS
  1
MATERIAL
  2
AcDbMaterial
  3
ObjectDBX Classes
 90
     1153
280
     0
281
     0
  0
CLASS
  1
SCALE
  2
AcDbScale
  3
ObjectDBX Classes
 90
     1153
280
     0
281
     0
  0
CLASS
  1
TABLESTYLE
  2
AcDbTableStyle
  3
ObjectDBX Classes
 90
     4095
280
     0
281
     0
  0
CLASS
  1
MLEADERSTYLE
  2
AcDbMLeaderStyle
  3
ACDB_MLEADERSTYLE_CLASS
 90
     4095
280
     0
281
     0
  0
CLASS
  1
SUN
  2
AcDbSun
  3
SCENEOE
 90
     1153
280
     0
281
     0
  0
CLASS
  1
ACDBPLACEHOLDER
  2
AcDbPlaceHolder
  3
ObjectDBX Classes
 90
        0
280
     0
281
     0
  0
CLASS
  1
LAYOUT
  2
AcDbLayout
  3
ObjectDBX Classes
 90
        0
280
     0
281
     0
  0
ENDSEC
  0
SECTION
  2
TABLES
  0
TABLE
  2
VPORT
  5
8
330
0
100
AcDbSymbolTable
 70
     1
  0
VPORT
  5
29
330
8
100
AcDbSymbolTableRecord
100
AcDbViewportTableRecord
  2
*Active
 70
     0
 10
0.0
 20
0.0
 11
1.0
 21
1.0
 12
139.7
 22
107.95
 13
0.0
 23
0.0
 14
10.0
 24
10.0
 15
10.0
 25
10.0
 16
0.0
 26
0.0
 36
1.0
 17
0.0
 27
0.0
 37
0.0
 40
215.9
 41
1.2941176471
 42
50.0
 43
0.0
 44
0.0
 50
0.0
 51
0.0
 71
     0
 72
  2000
 73
     1
 74
     3
 75
     0
 76
     0
 77
     0
 78
     0
281
     0
 65
     1
110
0.0
120
0.0
130
0.0
111
1.0
121
0.0
131
0.0
112
0.0
122
1.0
132
0.0
 79
     0
146
0.0
  0
ENDTAB
  0
TABLE
  2
LTYPE
  5
5
330
0
100
AcDbSymbolTable
 70
     6
  0
LTYPE
  5
14
330
5
100
AcDbSymbolTableRecord
100
AcDbLinetypeTableRecord
  2
ByBlock
 70
     0
  3

 72
    65
 73
     0
 40
0.0
  0
LTYPE
  5
15
330
5
100
AcDbSymbolTableRecord
100
AcDbLinetypeTableRecord
  2
ByLayer
 70
     0
  3

 72
    65
 73
     0
 40
0.0
  0
LTYPE
  5
16
330
5
100
AcDbSymbolTableRecord
100
AcDbLinetypeTableRecord
  2
Continuous
 70
     0
  3
Solid line
 72
    65
 73
     0
 40
0.0
  0
LTYPE
  5
6E
330
5
100
AcDbSymbolTableRecord
100
AcDbLinetypeTableRecord
  2
HIDDEN
 70
     0
  3
Hidden __ __ __ __ __ __ __ __ __ __ __ __ __ __
 72
    65
 73
     2
 40
1.905
 49
1.27
 74
     0
 49
-0.635
 74
     0
  0
LTYPE
  5
6F
330
5
100
AcDbSymbolTableRecord
100
AcDbLinetypeTableRecord
  2
PHANTOM
 70
     0
  3
Phantom ______  __  __  ______  __  __  ______
 72
    65
 73
     6
 40
12.7
 49
6.35
 74
     0
 49
-1.27
 74
     0
 49
1.27
 74
     0
 49
-1.27
 74
     0
 49
1.27
 74
     0
 49
-1.27
 74
     0
  0
LTYPE
  5
70
330
5
100
AcDbSymbolTableRecord
100
AcDbLinetypeTableRecord
  2
CENTER
 70
     0
  3
Center ____ _ ____ _ ____ _ ____ _ ____ _ ____
 72
    65
 73
     4
 40
10.16
 49
6.35
 74
     0
 49
-1.27
 74
     0
 49
1.27
 74
     0
 49
-1.27
 74
     0
  0
LTYPE
  5
71
330
5
100
AcDbSymbolTableRecord
100
AcDbLinetypeTableRecord
  2
CENTERX2
 70
     0
  3
Center (2x) ________  __  ________  __  _____
 72
    65
 73
     4
 40
20.32
 49
12.7
 74
     0
 49
-2.54
 74
     0
 49
2.54
 74
     0
 49
-2.54
 74
     0
  0
LTYPE
  5
72
330
5
100
AcDbSymbolTableRecord
100
AcDbLinetypeTableRecord
  2
DOT2
 70
     0
  3
Dot (.5x) ........................................
 72
    65
 73
     2
 40
0.635
 49
0.0
 74
     0
 49
-0.635
 74
     0
  0
ENDTAB
  0
TABLE
  2
LAYER
  5
2
330
0
100
AcDbSymbolTable
 70
    17
  0
LAYER
  5
10
330
2
100
AcDbSymbolTableRecord
100
AcDbLayerTableRecord
  2
0
 70
     0
 62
     7
  6
Continuous
370
    -3
390
F
  0
LAYER
  5
73
330
2
100
AcDbSymbolTableRecord
100
AcDbLayerTableRecord
  2
FORMAT
 70
     0
 62
     7
  6
Continuous
370
    -3
390
F
  0
LAYER
  5
74
330
2
100
AcDbSymbolTableRecord
100
AcDbLayerTableRecord
  2
YARDIMCI_GEOMETRI
 70
     0
 62
    -6
  6
Continuous
290
     0
370
    -3
390
F
  0
LAYER
  5
75
330
2
100
AcDbSymbolTableRecord
100
AcDbLayerTableRecord
  2
SAYFA_CERCEVESI
 70
     0
 62
     7
  6
Continuous
370
    25
390
F
  0
LAYER
  5
76
330
2
100
AcDbSymbolTableRecord
100
AcDbLayerTableRecord
  2
ANTET
 70
     0
 62
     7
  6
Continuous
370
    -3
390
F
  0
LAYER
  5
77
330
2
100
AcDbSymbolTableRecord
100
AcDbLayerTableRecord
  2
OLCU
 70
     0
 62
   150
  6
Continuous
370
    -3
390
F
  0
LAYER
  5
78
330
2
100
AcDbSymbolTableRecord
100
AcDbLayerTableRecord
  2
METIN
 70
     0
 62
    96
  6
Continuous
370
    -3
390
F
  0
LAYER
  5
79
330
2
100
AcDbSymbolTableRecord
100
AcDbLayerTableRecord
  2
BALON
 70
     0
 62
     5
  6
Continuous
370
    -3
390
F
  0
LAYER
  5
7A
330
2
100
AcDbSymbolTableRecord
100
AcDbLayerTableRecord
  2
VURGU
 70
     0
 62
     7
  6
Continuous
370
    -3
390
F
  0
LAYER
  5
7B
330
2
100
AcDbSymbolTableRecord
100
AcDbLayerTableRecord
  2
SILIK
 70
     0
 62
     7
  6
Continuous
370
    -3
390
F
  0
LAYER
  5
7C
330
2
100
AcDbSymbolTableRecord
100
AcDbLayerTableRecord
  2
MODEL
 70
     0
 62
     7
  6
Continuous
370
    -3
390
F
  0
LAYER
  5
7D
330
2
100
AcDbSymbolTableRecord
100
AcDbLayerTableRecord
  2
DETAYLANDıRMA
 70
     0
 62
   190
  6
Continuous
370
    -3
390
F
  0
LAYER
  5
7E
330
2
100
AcDbSymbolTableRecord
100
AcDbLayerTableRecord
  2
TOLERANS
 70
     0
 62
   230
  6
Continuous
370
    -3
390
F
  0
LAYER
  5
7F
330
2
100
AcDbSymbolTableRecord
100
AcDbLayerTableRecord
  2
MERKEZ_CIZGILERI
 70
     0
 62
    30
  6
Continuous
370
    -3
390
F
  0
LAYER
  5
80
330
2
100
AcDbSymbolTableRecord
100
AcDbLayerTableRecord
  2
KESIT-DETAY_CIZGILERI
 70
     0
 62
     7
  6
Continuous
370
    -3
390
F
  0
LAYER
  5
81
330
2
100
AcDbSymbolTableRecord
100
AcDbLayerTableRecord
  2
\U+041E\U+0421\U+0415\U+0412\U+042B\U+0415
 70
     0
 62
     7
  6
Continuous
370
    -3
390
F
  0
LAYER
  5
82
330
2
100
AcDbSymbolTableRecord
100
AcDbLayerTableRecord
  2
\U+0412\U+041E\U+0414\U+042F\U+041D\U+042B\U+0415_\U+0417\U+041D\U+0410\U+041A\U+0418
 70
     0
 62
    11
  6
Continuous
370
    -3
390
F
  0
ENDTAB
  0
TABLE
  2
STYLE
  5
3
330
0
100
AcDbSymbolTable
 70
     1
  0
STYLE
  5
11
330
3
100
AcDbSymbolTableRecord
100
AcDbTextStyleTableRecord
  2
Standard
 70
     0
 40
0.0
 41
1.0
 50
0.0
 71
     0
 42
3.5
  3
txt
  4

  0
ENDTAB
  0
TABLE
  2
VIEW
  5
6
330
0
100
AcDbSymbolTable
 70
     0
  0
ENDTAB
  0
TABLE
  2
UCS
  5
7
330
0
100
AcDbSymbolTable
 70
     0
  0
ENDTAB
  0
TABLE
  2
APPID
  5
9
330
0
100
AcDbSymbolTable
 70
     1
  0
APPID
  5
12
330
9
100
AcDbSymbolTableRecord
100
AcDbRegAppTableRecord
  2
ACAD
 70
     0
  0
ENDTAB
  0
TABLE
  2
DIMSTYLE
  5
A
330
0
100
AcDbSymbolTable
 70
     1
100
AcDbDimStyleTable
  0
DIMSTYLE
105
27
330
A
100
AcDbSymbolTableRecord
100
AcDbDimStyleTableRecord
  2
ISO-25
 70
     0
 41
2.5
 42
0.625
 43
3.75
 44
1.25
 73
     0
 74
     0
 77
     1
 78
     8
140
2.5
141
2.5
143
0.0393700787
147
0.625
171
     3
172
     1
178
     0
271
     2
272
     2
274
     3
278
    44
283
     0
284
     8
340
11
  0
ENDTAB
  0
TABLE
  2
BLOCK_RECORD
  5
1
330
0
100
AcDbSymbolTable
 70
     2
  0
BLOCK_RECORD
  5
1F
330
1
100
AcDbSymbolTableRecord
100
AcDbBlockTableRecord
  2
*Model_Space
340
22
  0
BLOCK_RECORD
  5
1B
330
1
100
AcDbSymbolTableRecord
100
AcDbBlockTableRecord
  2
*Paper_Space
340
1E
  0
BLOCK_RECORD
  5
23
330
1
100
AcDbSymbolTableRecord
100
AcDbBlockTableRecord
  2
*Paper_Space0
340
26
  0
BLOCK_RECORD
  5
88
330
1
100
AcDbSymbolTableRecord
100
AcDbBlockTableRecord
  2
SW_CENTERMARKSYMBOL_0
340
0
102
{BLKREFS
331
93
102
}
  0
ENDTAB
  0
ENDSEC
  0
SECTION
  2
BLOCKS
  0
BLOCK
  5
20
330
1F
100
AcDbEntity
  8
0
100
AcDbBlockBegin
  2
*Model_Space
 70
     0
 10
0.0
 20
0.0
 30
0.0
  3
*Model_Space
  1

  0
ENDBLK
  5
21
330
1F
100
AcDbEntity
  8
0
100
AcDbBlockEnd
  0
BLOCK
  5
1C
330
1B
100
AcDbEntity
 67
     1
  8
0
100
AcDbBlockBegin
  2
*Paper_Space
 70
     0
 10
0.0
 20
0.0
 30
0.0
  3
*Paper_Space
  1

  0
ENDBLK
  5
1D
330
1B
100
AcDbEntity
 67
     1
  8
0
100
AcDbBlockEnd
  0
BLOCK
  5
24
330
23
100
AcDbEntity
  8
0
100
AcDbBlockBegin
  2
*Paper_Space0
 70
     0
 10
0.0
 20
0.0
 30
0.0
  3
*Paper_Space0
  1

  0
ENDBLK
  5
25
330
23
100
AcDbEntity
  8
0
100
AcDbBlockEnd
  0
BLOCK
  5
89
330
88
100
AcDbEntity
  8
0
100
AcDbBlockBegin
  2
SW_CENTERMARKSYMBOL_0
 70
     0
 10
0.0
 20
0.0
 30
0.0
  3
SW_CENTERMARKSYMBOL_0
  1

  0
LINE
  5
8B
330
88
100
AcDbEntity
  8
FORMAT
 62
     0
100
AcDbLine
 10
0.0
 20
0.0
 30
0.0
 11
0.0
 21
2.5
 31
0.0
  0
LINE
  5
8C
330
88
100
AcDbEntity
  8
FORMAT
 62
     0
100
AcDbLine
 10
0.0
 20
0.0
 30
0.0
 11
-2.5
 21
0.0
 31
0.0
  0
LINE
  5
8D
330
88
100
AcDbEntity
  8
FORMAT
 62
     0
100
AcDbLine
 10
0.0
 20
0.0
 30
0.0
 11
0.0
 21
-2.5
 31
0.0
  0
LINE
  5
8E
330
88
100
AcDbEntity
  8
FORMAT
 62
     0
100
AcDbLine
 10
0.0
 20
0.0
 30
0.0
 11
2.5
 21
0.0
 31
0.0
  0
LINE
  5
8F
330
88
100
AcDbEntity
  8
FORMAT
 62
     0
100
AcDbLine
 10
0.0
 20
5.0
 30
0.0
 11
0.0
 21
27.5
 31
0.0
  0
LINE
  5
90
330
88
100
AcDbEntity
  8
FORMAT
 62
     0
100
AcDbLine
 10
-5.0
 20
0.0
 30
0.0
 11
-27.5
 21
0.0
 31
0.0
  0
LINE
  5
91
330
88
100
AcDbEntity
  8
FORMAT
 62
     0
100
AcDbLine
 10
0.0
 20
-5.0
 30
0.0
 11
0.0
 21
-27.5
 31
0.0
  0
LINE
  5
92
330
88
100
AcDbEntity
  8
FORMAT
 62
     0
100
AcDbLine
 10
5.0
 20
0.0
 30
0.0
 11
27.5
 21
0.0
 31
0.0
  0
ENDBLK
  5
8A
330
88
100
AcDbEntity
  8
0
100
AcDbBlockEnd
  0
ENDSEC
  0
SECTION
  2
ENTITIES
  0
CIRCLE
  5
83
330
1F
100
AcDbEntity
  8
0
  6
Continuous
 62
     7
370
    25
100
AcDbCircle
 10
139.395004093
 20
107.5851680021
 30
0.0
 40
25.0
  0
CIRCLE
  5
84
330
1F
100
AcDbEntity
  8
0
  6
Continuous
 62
     7
370
    25
100
AcDbCircle
 10
139.395004093
 20
107.5851680021
 30
0.0
 40
20.40000000000001
  0
CIRCLE
  5
85
330
1F
100
AcDbEntity
  8
0
  6
Continuous
 62
     7
370
    25
100
AcDbCircle
 10
139.395004093
 20
107.5851680021
 30
0.0
 40
20.28372171585941
  0
CIRCLE
  5
86
330
1F
100
AcDbEntity
  8
0
  6
Continuous
 62
     7
370
    25
100
AcDbCircle
 10
139.395004093
 20
107.5851680021
 30
0.0
 40
13.11627828414055
  0
CIRCLE
  5
87
330
1F
100
AcDbEntity
  8
0
  6
Continuous
 62
     7
370
    25
100
AcDbCircle
 10
139.395004093
 20
107.5851680021
 30
0.0
 40
12.99999999999999
  0
INSERT
  5
93
330
1F
100
AcDbEntity
  8
FORMAT
 62
     7
100
AcDbBlockReference
  2
SW_CENTERMARKSYMBOL_0
 10
139.395004093
 20
107.5851680021
 30
0.0
  0
LINE
  5
94
330
1F
100
AcDbEntity
  8
0
  6
Continuous
 62
     7
370
    25
100
AcDbLine
 10
-9.9644455045
 20
132.5851683746
 30
0.0
 11
-64.7475122391
 21
132.5851683746
 31
0.0
  0
LINE
  5
95
330
1F
100
AcDbEntity
  8
0
  6
Continuous
 62
     7
370
    25
100
AcDbLine
 10
-64.7475122391
 20
82.5851676296
 30
0.0
 11
-9.9644455045
 21
82.5851676296
 31
0.0
  0
ARC
  5
96
330
1F
100
AcDbEntity
  8
0
  6
Continuous
 62
     7
370
    25
100
AcDbCircle
 10
-9.9644450165
 20
130.5851680021
 30
0.0
 40
2.000000000000006
100
AcDbArc
 50
77.6192430712
 51
90.0
  0
ARC
  5
97
330
1F
100
AcDbEntity
  8
0
  6
Continuous
 62
     7
370
    25
100
AcDbCircle
 10
-9.9644450165
 20
84.5851680021
 30
0.0
 40
2.0
100
AcDbArc
 50
270.0
 51
282.3807569288
  0
LINE
  5
98
330
1F
100
AcDbEntity
  8
0
  6
Continuous
 62
     7
370
    25
100
AcDbLine
 10
-9.5356310635
 20
82.6316797416
 30
0.0
 11
31.0405996711
 21
91.5386569928
 31
0.0
  0
LINE
  5
99
330
1F
100
AcDbEntity
  8
0
  6
Continuous
 62
     7
370
    25
100
AcDbLine
 10
31.0405996711
 20
123.6316790115
 30
0.0
 11
-9.5356310635
 21
132.5386562626
 31
0.0
  0
ARC
  5
9A
330
1F
100
AcDbEntity
  8
0
  6
Continuous
 62
     7
370
    25
100
AcDbCircle
 10
31.4694144162
 20
125.5851680021
 30
0.0
 40
2.000000000000007
100
AcDbArc
 50
257.6192430712
 51
270.0
  0
ARC
  5
9B
330
1F
100
AcDbEntity
  8
0
  6
Continuous
 62
     7
370
    25
100
AcDbCircle
 10
31.4694144162
 20
89.5851680021
 30
0.0
 40
2.000000000000021
100
AcDbArc
 50
90.0
 51
102.3807569288
  0
LINE
  5
9C
330
1F
100
AcDbEntity
  8
0
  6
Continuous
 62
     7
370
    25
100
AcDbLine
 10
75.2524883569
 20
123.5851687621
 30
0.0
 11
31.4694141121
 21
123.5851687621
 31
0.0
  0
LINE
  5
9D
330
1F
100
AcDbEntity
  8
0
  6
Continuous
 62
     7
370
    25
100
AcDbLine
 10
31.4694141121
 20
91.5851672422
 30
0.0
 11
75.2524883569
 21
91.5851672422
 31
0.0
  0
LINE
  5
9E
330
1F
100
AcDbEntity
  8
0
  6
Continuous
 62
     7
370
    25
100
AcDbLine
 10
-64.7475122391
 20
132.5851683746
 30
0.0
 11
-64.7475122391
 21
82.5851676296
 31
0.0
  0
LINE
  5
9F
330
1F
100
AcDbEntity
  8
0
  6
Continuous
 62
     7
370
    25
100
AcDbLine
 10
75.2524883569
 20
123.5851687621
 30
0.0
 11
75.2524883569
 21
91.5851672422
 31
0.0
  0
LINE
  5
A0
330
1F
100
AcDbEntity
  8
0
  6
Continuous
 62
     1
370
    25
100
AcDbLine
 10
-9.9644455045
 20
132.5851683746
 30
0.0
 11
-9.9644455045
 21
82.5851676296
 31
0.0
  0
LINE
  5
A1
330
1F
100
AcDbEntity
  8
0
  6
Continuous
 62
     1
370
    25
100
AcDbLine
 10
-9.5356310635
 20
132.5386562626
 30
0.0
 11
-9.5356310635
 21
82.6316797416
 31
0.0
  0
LINE
  5
A2
330
1F
100
AcDbEntity
  8
0
  6
Continuous
 62
     1
370
    25
100
AcDbLine
 10
31.0405996711
 20
123.6316790115
 30
0.0
 11
31.0405996711
 21
91.5386569928
 31
0.0
  0
LINE
  5
A3
330
1F
100
AcDbEntity
  8
0
  6
Continuous
 62
     1
370
    25
100
AcDbLine
 10
31.4694141121
 20
123.5851687621
 30
0.0
 11
31.4694141121
 21
91.5851672422
 31
0.0
  0
LINE
  5
A4
330
1F
100
AcDbEntity
  8
0
  6
Continuous
 62
     7
370
    25
100
AcDbLine
 10
286.2509304608
 20
82.5851676296
 30
0.0
 11
341.0339971955
 21
82.5851676296
 31
0.0
  0
LINE
  5
A5
330
1F
100
AcDbEntity
  8
0
  6
Continuous
 62
     7
370
    25
100
AcDbLine
 10
341.0339971955
 20
132.5851683746
 30
0.0
 11
286.2509304608
 21
132.5851683746
 31
0.0
  0
ARC
  5
A6
330
1F
100
AcDbEntity
  8
0
  6
Continuous
 62
     7
370
    25
100
AcDbCircle
 10
286.2509299728
 20
84.5851680021
 30
0.0
 40
2.000000000000002
100
AcDbArc
 50
257.6192430712
 51
270.0
  0
ARC
  5
A7
330
1F
100
AcDbEntity
  8
0
  6
Continuous
 62
     7
370
    25
100
AcDbCircle
 10
286.2509299728
 20
130.5851680021
 30
0.0
 40
2.000000000000016
100
AcDbArc
 50
90.0
 51
102.3807569288
  0
LINE
  5
A8
330
1F
100
AcDbEntity
  8
0
  6
Continuous
 62
     7
370
    25
100
AcDbLine
 10
285.8221160198
 20
132.5386562626
 30
0.0
 11
245.2458852852
 21
123.6316790115
 31
0.0
  0
LINE
  5
A9
330
1F
100
AcDbEntity
  8
0
  6
Continuous
 62
     7
370
    25
100
AcDbLine
 10
245.2458852852
 20
91.5386569928
 30
0.0
 11
285.8221160198
 21
82.6316797416
 31
0.0
  0
ARC
  5
AA
330
1F
100
AcDbEntity
  8
0
  6
Continuous
 62
     7
370
    25
100
AcDbCircle
 10
244.8170705401
 20
89.5851680021
 30
0.0
 40
2.000000000000024
100
AcDbArc
 50
77.6192430712
 51
90.0
  0
ARC
  5
AB
330
1F
100
AcDbEntity
  8
0
  6
Continuous
 62
     7
370
    25
100
AcDbCircle
 10
244.8170705401
 20
125.5851680021
 30
0.0
 40
2.00000000000001
100
AcDbArc
 50
270.0
 51
282.3807569288
  0
LINE
  5
AC
330
1F
100
AcDbEntity
  8
0
  6
Continuous
 62
     7
370
    25
100
AcDbLine
 10
201.0339965994
 20
91.5851672422
 30
0.0
 11
244.8170708443
 21
91.5851672422
 31
0.0
  0
LINE
  5
AD
330
1F
100
AcDbEntity
  8
0
  6
Continuous
 62
     7
370
    25
100
AcDbLine
 10
244.8170708443
 20
123.5851687621
 30
0.0
 11
201.0339965994
 21
123.5851687621
 31
0.0
  0
LINE
  5
AE
330
1F
100
AcDbEntity
  8
0
  6
Continuous
 62
     7
370
    25
100
AcDbLine
 10
341.0339971955
 20
107.5851680021
 30
0.0
 11
341.0339971955
 21
132.5851683746
 31
0.0
  0
LINE
  5
AF
330
1F
100
AcDbEntity
  8
0
  6
Continuous
 62
     7
370
    25
100
AcDbLine
 10
341.0339971955
 20
82.5851676296
 30
0.0
 11
341.0339971955
 21
107.5851680021
 31
0.0
  0
LINE
  5
B0
330
1F
100
AcDbEntity
  8
0
  6
Continuous
 62
     7
370
    25
100
AcDbLine
 10
201.0339965994
 20
107.5851680021
 30
0.0
 11
201.0339965994
 21
123.5851687621
 31
0.0
  0
LINE
  5
B1
330
1F
100
AcDbEntity
  8
0
  6
Continuous
 62
     7
370
    25
100
AcDbLine
 10
201.0339965994
 20
91.5851672422
 30
0.0
 11
201.0339965994
 21
107.5851680021
 31
0.0
  0
LINE
  5
B2
330
1F
100
AcDbEntity
  8
0
  6
Continuous
 62
     1
370
    25
100
AcDbLine
 10
286.2509304608
 20
107.5851680021
 30
0.0
 11
286.2509304608
 21
132.5851683746
 31
0.0
  0
LINE
  5
B3
330
1F
100
AcDbEntity
  8
0
  6
Continuous
 62
     1
370
    25
100
AcDbLine
 10
286.2509304608
 20
82.5851676296
 30
0.0
 11
286.2509304608
 21
107.5851680021
 31
0.0
  0
LINE
  5
B4
330
1F
100
AcDbEntity
  8
0
  6
Continuous
 62
     1
370
    25
100
AcDbLine
 10
285.8221160198
 20
107.5851680021
 30
0.0
 11
285.8221160198
 21
132.5386562626
 31
0.0
  0
LINE
  5
B5
330
1F
100
AcDbEntity
  8
0
  6
Continuous
 62
     1
370
    25
100
AcDbLine
 10
285.8221160198
 20
82.6316797416
 30
0.0
 11
285.8221160198
 21
107.5851680021
 31
0.0
  0
LINE
  5
B6
330
1F
100
AcDbEntity
  8
0
  6
Continuous
 62
     1
370
    25
100
AcDbLine
 10
245.2458852852
 20
107.5851680021
 30
0.0
 11
245.2458852852
 21
123.6316790115
 31
0.0
  0
LINE
  5
B7
330
1F
100
AcDbEntity
  8
0
  6
Continuous
 62
     1
370
    25
100
AcDbLine
 10
245.2458852852
 20
91.5386569928
 30
0.0
 11
245.2458852852
 21
107.5851680021
 31
0.0
  0
LINE
  5
B8
330
1F
100
AcDbEntity
  8
0
  6
Continuous
 62
     1
370
    25
100
AcDbLine
 10
244.8170708443
 20
107.5851680021
 30
0.0
 11
244.8170708443
 21
123.5851687621
 31
0.0
  0
LINE
  5
B9
330
1F
100
AcDbEntity
  8
0
  6
Continuous
 62
     1
370
    25
100
AcDbLine
 10
244.8170708443
 20
91.5851672422
 30
0.0
 11
244.8170708443
 21
107.5851680021
 31
0.0
  0
LINE
  5
BA
330
1F
100
AcDbEntity
  8
0
  6
Continuous
 62
     7
370
    25
100
AcDbLine
 10
164.3950044656
 20
246.5478116222
 30
0.0
 11
164.3950044656
 21
301.3308783569
 31
0.0
  0
LINE
  5
BB
330
1F
100
AcDbEntity
  8
0
  6
Continuous
 62
     7
370
    25
100
AcDbLine
 10
114.3950037205
 20
301.3308783569
 30
0.0
 11
114.3950037205
 21
246.5478116222
 31
0.0
  0
ARC
  5
BC
330
1F
100
AcDbEntity
  8
0
  6
Continuous
 62
     7
370
    25
100
AcDbCircle
 10
162.395004093
 20
246.5478111343
 30
0.0
 40
2.0
100
AcDbArc
 50
347.6192430712
 51
0.0
  0
ARC
  5
BD
330
1F
100
AcDbEntity
  8
0
  6
Continuous
 62
     7
370
    25
100
AcDbCircle
 10
116.395004093
 20
246.5478111343
 30
0.0
 40
2.0
100
AcDbArc
 50
180.0
 51
192.3807569288
  0
LINE
  5
BE
330
1F
100
AcDbEntity
  8
0
  6
Continuous
 62
     7
370
    25
100
AcDbLine
 10
114.4415158325
 20
246.1189971813
 30
0.0
 11
123.3484930837
 21
205.5427664467
 31
0.0
  0
LINE
  5
BF
330
1F
100
AcDbEntity
  8
0
  6
Continuous
 62
     7
370
    25
100
AcDbLine
 10
155.4415151024
 20
205.5427664467
 30
0.0
 11
164.3484923536
 21
246.1189971813
 31
0.0
  0
ARC
  5
C0
330
1F
100
AcDbEntity
  8
0
  6
Continuous
 62
     7
370
    25
100
AcDbCircle
 10
157.395004093
 20
205.1139517016
 30
0.0
 40
2.000000000000028
100
AcDbArc
 50
167.6192430712
 51
180.0
  0
ARC
  5
C1
330
1F
100
AcDbEntity
  8
0
  6
Continuous
 62
     7
370
    25
100
AcDbCircle
 10
121.395004093
 20
205.1139517016
 30
0.0
 40
2.000000000000004
100
AcDbArc
 50
0.0
 51
12.3807569288
  0
LINE
  5
C2
330
1F
100
AcDbEntity
  8
0
  6
Continuous
 62
     7
370
    25
100
AcDbLine
 10
155.395004853
 20
161.3308777609
 30
0.0
 11
155.395004853
 21
205.1139520057
 31
0.0
  0
LINE
  5
C3
330
1F
100
AcDbEntity
  8
0
  6
Continuous
 62
     7
370
    25
100
AcDbLine
 10
123.3950033331
 20
205.1139520057
 30
0.0
 11
123.3950033331
 21
161.3308777609
 31
0.0
  0
LINE
  5
C4
330
1F
100
AcDbEntity
  8
0
  6
Continuous
 62
     7
370
    25
100
AcDbLine
 10
164.3950044656
 20
301.3308783569
 30
0.0
 11
114.3950037205
 21
301.3308783569
 31
0.0
  0
LINE
  5
C5
330
1F
100
AcDbEntity
  8
0
  6
Continuous
 62
     7
370
    25
100
AcDbLine
 10
155.395004853
 20
161.3308777609
 30
0.0
 11
123.3950033331
 21
161.3308777609
 31
0.0
  0
LINE
  5
C6
330
1F
100
AcDbEntity
  8
0
  6
Continuous
 62
     1
370
    25
100
AcDbLine
 10
164.3950044656
 20
246.5478116222
 30
0.0
 11
114.3950037205
 21
246.5478116222
 31
0.0
  0
LINE
  5
C7
330
1F
100
AcDbEntity
  8
0
  6
Continuous
 62
     1
370
    25
100
AcDbLine
 10
164.3484923536
 20
246.1189971813
 30
0.0
 11
114.4415158325
 21
246.1189971813
 31
0.0
  0
LINE
  5
C8
330
1F
100
AcDbEntity
  8
0
  6
Continuous
 62
     1
370
    25
100
AcDbLine
 10
155.4415151024
 20
205.5427664467
 30
0.0
 11
123.3484930837
 21
205.5427664467
 31
0.0
  0
LINE
  5
C9
330
1F
100
AcDbEntity
  8
0
  6
Continuous
 62
     1
370
    25
100
AcDbLine
 10
155.395004853
 20
205.1139520057
 30
0.0
 11
123.3950033331
 21
205.1139520057
 31
0.0
  0
LINE
  5
CA
330
1F
100
AcDbEntity
  8
0
  6
Continuous
 62
     7
370
    25
100
AcDbLine
 10
114.3950037205
 20
-34.2290807382
 30
0.0
 11
114.3950037205
 21
-89.0121474728
 31
0.0
  0
LINE
  5
CB
330
1F
100
AcDbEntity
  8
0
  6
Continuous
 62
     7
370
    25
100
AcDbLine
 10
164.3950044656
 20
-89.0121474728
 30
0.0
 11
164.3950044656
 21
-34.2290807382
 31
0.0
  0
ARC
  5
CC
330
1F
100
AcDbEntity
  8
0
  6
Continuous
 62
     7
370
    25
100
AcDbCircle
 10
116.395004093
 20
-34.2290802502
 30
0.0
 40
2.0
100
AcDbArc
 50
167.6192430712
 51
180.0
  0
ARC
  5
CD
330
1F
100
AcDbEntity
  8
0
  6
Continuous
 62
     7
370
    25
100
AcDbCircle
 10
162.395004093
 20
-34.2290802502
 30
0.0
 40
2.0
100
AcDbArc
 50
0.0
 51
12.3807569288
  0
LINE
  5
CE
330
1F
100
AcDbEntity
  8
0
  6
Continuous
 62
     7
370
    25
100
AcDbLine
 10
164.3484923536
 20
-33.8002662972
 30
0.0
 11
155.4415151024
 21
6.7759644374
 31
0.0
  0
LINE
  5
CF
330
1F
100
AcDbEntity
  8
0
  6
Continuous
 62
     7
370
    25
100
AcDbLine
 10
123.3484930837
 20
6.7759644374
 30
0.0
 11
114.4415158325
 21
-33.8002662972
 31
0.0
  0
ARC
  5
D0
330
1F
100
AcDbEntity
  8
0
  6
Continuous
 62
     7
370
    25
100
AcDbCircle
 10
121.395004093
 20
7.2047791825
 30
0.0
 40
2.000000000000007
100
AcDbArc
 50
347.6192430712
 51
0.0
  0
ARC
  5
D1
330
1F
100
AcDbEntity
  8
0
  6
Continuous
 62
     7
370
    25
100
AcDbCircle
 10
157.395004093
 20
7.2047791825
 30
0.0
 40
2.000000000000028
100
AcDbArc
 50
180.0
 51
192.3807569288
  0
LINE
  5
D2
330
1F
100
AcDbEntity
  8
0
  6
Continuous
 62
     7
370
    25
100
AcDbLine
 10
123.3950033331
 20
50.9878531232
 30
0.0
 11
123.3950033331
 21
7.2047788783
 31
0.0
  0
LINE
  5
D3
330
1F
100
AcDbEntity
  8
0
  6
Continuous
 62
     7
370
    25
100
AcDbLine
 10
155.395004853
 20
7.2047788783
 30
0.0
 11
155.395004853
 21
50.9878531232
 31
0.0
  0
LINE
  5
D4
330
1F
100
AcDbEntity
  8
0
  6
Continuous
 62
     7
370
    25
100
AcDbLine
 10
114.3950037205
 20
-89.0121474728
 30
0.0
 11
164.3950044656
 21
-89.0121474728
 31
0.0
  0
LINE
  5
D5
330
1F
100
AcDbEntity
  8
0
  6
Continuous
 62
     7
370
    25
100
AcDbLine
 10
123.3950033331
 20
50.9878531232
 30
0.0
 11
155.395004853
 21
50.9878531232
 31
0.0
  0
LINE
  5
D6
330
1F
100
AcDbEntity
  8
0
  6
Continuous
 62
     1
370
    25
100
AcDbLine
 10
114.3950037205
 20
-34.2290807382
 30
0.0
 11
164.3950044656
 21
-34.2290807382
 31
0.0
  0
LINE
  5
D7
330
1F
100
AcDbEntity
  8
0
  6
Continuous
 62
     1
370
    25
100
AcDbLine
 10
114.4415158325
 20
-33.8002662972
 30
0.0
 11
164.3484923536
 21
-33.8002662972
 31
0.0
  0
LINE
  5
D8
330
1F
100
AcDbEntity
  8
0
  6
Continuous
 62
     1
370
    25
100
AcDbLine
 10
123.3484930837
 20
6.7759644374
 30
0.0
 11
155.4415151024
 21
6.7759644374
 31
0.0
  0
LINE
  5
D9
330
1F
100
AcDbEntity
  8
0
  6
Continuous
 62
     1
370
    25
100
AcDbLine
 10
123.3950033331
 20
7.2047788783
 30
0.0
 11
155.395004853
 21
7.2047788783
 31
0.0
  0
LINE
  5
DA
330
1F
100
AcDbEntity
  8
0
  6
Continuous
 62
     7
370
    25
100
AcDbLine
 10
269.6934972138
 20
27.8060795976
 30
0.0
 11
230.9560192315
 21
50.168749634
 31
0.0
  0
LINE
  5
DB
330
1F
100
AcDbEntity
  8
0
  6
Continuous
 62
     7
370
    25
100
AcDbLine
 10
205.9580516643
 20
6.8663062717
 30
0.0
 11
244.6955296466
 21
-15.4963637646
 31
0.0
  0
SPLINE
  5
DC
330
1F
100
AcDbEntity
  8
0
  6
Continuous
 62
     7
370
    25
100
AcDbSpline
210
0.0
220
0.0
230
1.0
 70
     8
 71
     3
 72
    11
 73
     7
 74
     0
 42
0.000000001
 43
0.00000001
 40
0.0
 40
0.0
 40
0.0
 40
0.0
 40
0.1289618653189863
 40
0.5098707810500686
 40
0.8877392411300268
 40
1.0
 40
1.0
 40
1.0
 40
1.0
 10
271.748789598524
 20
26.2055751132311
 30
0.0
 10
271.6718947344044
 20
26.28736729621923
 30
0.0
 10
271.367878936165
 20
26.61074540587042
 30
0.0
 10
270.7723589020608
 20
27.09205967553082
 30
0.0
 10
270.1683559178531
 20
27.5367509846569
 30
0.0
 10
269.7984453046889
 20
27.73682205959704
 30
0.0
 10
269.7137197985523
 20
27.78264697644006
 30
0.0
  0
SPLINE
  5
DD
330
1F
100
AcDbEntity
  8
0
  6
Continuous
 62
     7
370
    25
100
AcDbSpline
210
0.0
220
0.0
230
1.0
 70
     8
 71
     3
 72
    10
 73
     6
 74
     0
 42
0.000000001
 43
0.00000001
 40
0.0
 40
0.0
 40
0.0
 40
0.0
 40
0.3068015359561596
 40
0.6838195862574954
 40
1.0
 40
1.0
 40
1.0
 40
1.0
 10
244.6800999487698
 20
-15.47892616296294
 30
0.0
 10
244.9085474423777
 20
-15.60737757874798
 30
0.0
 10
245.4177263487793
 20
-15.8936786030325
 30
0.0
 10
246.2102708058606
 20
-16.2234873338355
 30
0.0
 10
246.7850860956949
 20
-16.38858374322504
 30
0.0
 10
247.0472697928501
 20
-16.46388721508167
 30
0.0
  0
LINE
  5
DE
330
1F
100
AcDbEntity
  8
0
  6
Continuous
 62
     7
370
    25
100
AcDbLine
 10
247.1101660617
 20
-16.4873321696
 30
0.0
 11
279.5096648437
 21
-25.0312192494
 31
0.0
  0
LINE
  5
DF
330
1F
100
AcDbEntity
  8
0
  6
Continuous
 62
     7
370
    25
100
AcDbLine
 10
295.3603747795
 20
2.4259905457
 30
0.0
 11
271.7591695771
 21
26.2106200453
 31
0.0
  0
LINE
  5
E0
330
1F
100
AcDbEntity
  8
0
  6
Continuous
 62
     7
370
    25
100
AcDbLine
 10
325.4513352521
 20
-14.7742583486
 30
0.0
 11
294.9633955891
 21
2.8260545857
 31
0.0
  0
LINE
  5
E1
330
1F
100
AcDbEntity
  8
0
  6
Continuous
 62
     7
370
    25
100
AcDbLine
 10
278.9646955558
 20
-24.8875089532
 30
0.0
 11
309.4526352189
 21
-42.4878218875
 31
0.0
  0
LWPOLYLINE
  5
E2
330
1F
100
AcDbEntity
  8
0
  6
Continuous
 62
     7
370
    25
100
AcDbPolyline
 90
       97
 70
   128
 43
0.0
 10
200.7793656548
 20
18.312426403
 10
200.8172148419
 20
19.6693843744
 10
200.9306004011
 20
21.0642314053
 10
201.1190376437
 20
22.4909951507
 10
201.381717877
 20
23.9435648919
 10
201.7175176242
 20
25.4157210985
 10
202.124998624
 20
26.901159668
 10
202.6024157334
 20
28.3935202526
 10
203.1477248303
 20
29.8864113535
 10
203.7585907159
 20
31.3734407387
 10
204.4323976514
 20
32.8482405375
 10
205.1662598948
 20
34.3044961367
 10
205.9570348716
 20
35.7359705146
 10
206.8013376631
 20
37.1365338975
 10
207.6955522014
 20
38.5001899945
 10
208.6358483917
 20
39.82109881
 10
209.6182005514
 20
41.0936040186
 10
210.6384018981
 20
42.3122565379
 10
211.6920843061
 20
43.4718381012
 10
212.7747347699
 20
44.567382929
 10
213.8817177948
 20
45.5941997805
 10
215.0082931773
 20
46.5478913437
 10
216.1496365851
 20
47.4243752408
 10
217.3008605477
 20
48.2198961471
 10
218.4570354479
 20
48.9310485542
 10
219.6132103481
 20
49.5547872729
 10
220.7644343107
 20
50.0884412616
 10
221.9057777185
 20
50.5297244136
 10
223.032353101
 20
50.8767491006
 10
224.1393361259
 20
51.1280276445
 10
225.2219865897
 20
51.2824844352
 10
226.2756689978
 20
51.3394586852
 10
227.2958703445
 20
51.2987055685
 10
228.2782225041
 20
51.1604000213
 10
229.2185186944
 20
50.9251340785
 10
230.1127332327
 20
50.5939161114
 10
230.9570360242
 20
50.1681639821
 10
231.7478110011
 20
49.6496989585
 10
232.4816732444
 20
49.0407426702
 10
233.1554801799
 20
48.3439037998
 10
233.7663460655
 20
47.5621651536
 10
234.3116551625
 20
46.6988745346
 10
234.7890722719
 20
45.7577280116
 10
235.1965532716
 20
44.7427569902
 10
235.5323530188
 20
43.6583069191
 10
235.7950332521
 20
42.5090213198
 10
235.9834704947
 20
41.2998225837
 10
236.0968560539
 20
40.0358877329
 10
236.134705241
 20
38.7226295027
 10
236.0968560539
 20
37.3656715313
 10
235.9834704947
 20
35.9708245004
 10
235.7950332521
 20
34.544060755
 10
235.5323530188
 20
33.0914910138
 10
235.1965532716
 20
31.6193348073
 10
234.7890722719
 20
30.1338962377
 10
234.3116551625
 20
28.6415356531
 10
233.7663460655
 20
27.1486445522
 10
233.1554801799
 20
25.661615167
 10
232.4816732444
 20
24.1868153683
 10
231.7478110011
 20
22.730559769
 10
230.9570360242
 20
21.2990853911
 10
230.1127332327
 20
19.8985220082
 10
229.2185186944
 20
18.5348659112
 10
228.2782225041
 20
17.2139570957
 10
227.2958703445
 20
15.9414518871
 10
226.2756689978
 20
14.7227993678
 10
225.2219865897
 20
13.5632178045
 10
224.1393361259
 20
12.4676729767
 10
223.032353101
 20
11.4408561252
 10
221.9057777185
 20
10.4871645621
 10
220.7644343107
 20
9.6106806649
 10
219.6132103481
 20
8.8151597586
 10
218.4570354479
 20
8.1040073515
 10
217.3008605477
 20
7.4802686328
 10
216.1496365851
 20
6.9466146441
 10
215.0082931773
 20
6.5053314922
 10
213.8817177948
 20
6.1583068051
 10
212.7747347699
 20
5.9070282612
 10
211.6920843061
 20
5.7525714705
 10
210.6384018981
 20
5.6955972205
 10
209.6182005514
 20
5.7363503372
 10
208.6358483917
 20
5.8746558844
 10
207.6955522014
 20
6.1099218272
 10
206.8013376631
 20
6.4411397943
 10
205.9570348716
 20
6.8668919236
 10
205.1662598948
 20
7.3853569472
 10
204.4323976514
 20
7.9943132355
 10
203.7585907159
 20
8.6911521059
 10
203.1477248303
 20
9.4728907521
 10
202.6024157334
 20
10.3361813711
 10
202.124998624
 20
11.2773278941
 10
201.7175176242
 20
12.2922989155
 10
201.381717877
 20
13.3767489866
 10
201.1190376437
 20
14.526034586
 10
200.9306004011
 20
15.7352333221
 10
200.8172148419
 20
16.9991681728
 10
200.7793656548
 20
18.312426403
  0
LWPOLYLINE
  5
E3
330
1F
100
AcDbEntity
  8
0
  6
Continuous
 62
     7
370
    25
100
AcDbPolyline
 90
       87
 70
   128
 43
0.0
 10
204.0320565912
 20
20.1901649118
 10
204.0705392981
 20
21.4282950787
 10
204.1857793186
 20
22.7042487907
 10
204.3771615722
 20
24.0112182515
 10
204.6436679492
 20
25.3422318231
 10
204.9838733591
 20
26.6901865355
 10
205.3959641704
 20
28.0478908613
 10
205.8777421616
 20
29.4081015978
 10
206.4266350577
 20
30.7635592273
 10
207.039716287
 20
32.1070350643
 10
207.7137128833
 20
33.4313582506
 10
208.4450305107
 20
34.7294644235
 10
209.2297659759
 20
35.9944272727
 10
210.0637329113
 20
37.2194969424
 10
210.9424821905
 20
38.398138432
 10
211.8613249763
 20
39.5240616322
 10
212.815358405
 20
40.5912620081
 10
213.7994925861
 20
41.5940422689
 10
214.8084769442
 20
42.527054952
 10
215.8369278779
 20
43.385319911
 10
216.8793580652
 20
44.1642579631
 10
217.9302060565
 20
44.8597155777
 10
218.9838648393
 20
45.4679798457
 10
220.0347128306
 20
45.9858054964
 10
221.0771430179
 20
46.41043172
 10
222.1055939516
 20
46.7395909341
 10
223.1145783097
 20
46.9715267941
 10
224.0987124908
 20
47.1050036729
 10
225.0527459195
 20
47.1393068477
 10
225.9715887054
 20
47.0742569466
 10
226.8503379845
 20
46.9101977788
 10
227.68430492
 20
46.6480058374
 10
228.4690403851
 20
46.2890792706
 10
229.2003580125
 20
45.8353344576
 10
229.8743546088
 20
45.2891911773
 10
230.4874358381
 20
44.6535638608
 10
231.0363287343
 20
43.9318444797
 10
231.5181067254
 20
43.1278827717
 10
231.9301975367
 20
42.2459683691
 10
232.2704029466
 20
41.2908064622
 10
232.5369093236
 20
40.2674946038
 10
232.7282915772
 20
39.1814903896
 10
232.8435315978
 20
38.0385899732
 10
232.8820143046
 20
36.8448909939
 10
232.8435315978
 20
35.606760827
 10
232.7282915772
 20
34.330807115
 10
232.5369093236
 20
33.0238376542
 10
232.2704029466
 20
31.6928240826
 10
231.9301975367
 20
30.3448693702
 10
231.5181067254
 20
28.9871650444
 10
231.0363287343
 20
27.6269543079
 10
230.4874358381
 20
26.2714966784
 10
229.8743546088
 20
24.9280208414
 10
229.2003580125
 20
23.6036976551
 10
228.4690403851
 20
22.3055914823
 10
227.68430492
 20
21.040628633
 10
226.8503379845
 20
19.8155589633
 10
225.9715887054
 20
18.6369174738
 10
225.0527459195
 20
17.5109942735
 10
224.0987124908
 20
16.4437938976
 10
223.1145783097
 20
15.4410136368
 10
222.1055939516
 20
14.5080009537
 10
221.0771430179
 20
13.6497359947
 10
220.0347128306
 20
12.8707979427
 10
218.9838648393
 20
12.175340328
 10
217.9302060565
 20
11.56707606
 10
216.8793580652
 20
11.0492504093
 10
215.8369278779
 20
10.6246241857
 10
214.8084769442
 20
10.2954649716
 10
213.7994925861
 20
10.0635291116
 10
212.815358405
 20
9.9300522328
 10
211.8613249763
 20
9.895749058
 10
210.9424821905
 20
9.9607989591
 10
210.0637329113
 20
10.1248581269
 10
209.2297659759
 20
10.3870500684
 10
208.4450305107
 20
10.7459766351
 10
207.7137128833
 20
11.1997214481
 10
207.039716287
 20
11.7458647284
 10
206.4266350577
 20
12.3814920449
 10
205.8777421616
 20
13.103211426
 10
205.3959641704
 20
13.907173134
 10
204.9838733591
 20
14.7890875366
 10
204.6436679492
 20
15.7442494435
 10
204.3771615722
 20
16.7675613019
 10
204.1857793186
 20
17.8535655161
 10
204.0705392981
 20
18.9964659325
 10
204.0320565912
 20
20.1901649118
  0
LINE
  5
E4
330
1F
100
AcDbEntity
  8
0
  6
Continuous
 62
     7
370
    25
100
AcDbLine
 10
247.1101660617
 20
-16.4873321696
 30
0.0
 11
247.0531123997
 21
-16.4720840979
 31
0.0
  0
LINE
  5
E5
330
1F
100
AcDbEntity
  8
0
  6
Continuous
 62
     7
370
    25
100
AcDbLine
 10
279.5096648437
 20
-25.0312192494
 30
0.0
 11
279.4686441063
 21
-25.0202403999
 31
0.0
  0
LWPOLYLINE
  5
E6
330
1F
100
AcDbEntity
  8
0
  6
Continuous
 62
     7
370
    25
100
AcDbPolyline
 90
       40
 70
   128
 43
0.0
 10
325.4513352521
 20
-14.7742583486
 10
325.7757513989
 20
-14.9773833326
 10
326.3800911085
 20
-15.4524783939
 10
326.9234430111
 20
-16.0175958924
 10
327.4020948915
 20
-16.6688765108
 10
327.8127777346
 20
-17.4018704739
 10
328.1526854824
 20
-18.2115713913
 10
328.419497424
 20
-19.0924474382
 10
328.6113893911
 20
-20.0384820411
 10
328.7270521972
 20
-21.0432119983
 10
328.7656942719
 20
-22.0997749132
 10
328.7270521972
 20
-23.200953018
 10
328.6113893911
 20
-24.3392244085
 10
328.419497424
 20
-25.5068127608
 10
328.1526854824
 20
-26.6957433182
 10
327.8127777346
 20
-27.8978933677
 10
327.4020948915
 20
-29.1050516487
 10
326.9234430111
 20
-30.3089719649
 10
326.3800911085
 20
-31.5014302169
 10
325.7757513989
 20
-32.6742810547
 10
325.1145516395
 20
-33.8195126286
 10
324.4010087869
 20
-34.9293013401
 10
323.6399973877
 20
-35.9960665919
 10
322.8367153335
 20
-37.0125209757
 10
321.9966502759
 20
-37.9717215999
 10
321.1255404424
 20
-38.867115524
 10
320.2293364411
 20
-39.6925876637
 10
319.3141604311
 20
-40.4424972896
 10
318.386263893
 20
-41.1117236986
 10
317.4519852355
 20
-41.6956937288
 10
316.517706578
 20
-42.1904188759
 10
315.5898100399
 20
-42.5925190059
 10
314.6746340299
 20
-42.89924911
 10
313.7784300286
 20
-43.1085120852
 10
312.9073201951
 20
-43.2188801667
 10
312.0672551375
 20
-43.2295980127
 10
311.2639730833
 20
-43.1405933473
 10
310.5029616841
 20
-42.9524731545
 10
309.7894188315
 20
-42.6665234847
 10
309.4526352189
 20
-42.4878218875
  0
LWPOLYLINE
  5
E7
330
1F
100
AcDbEntity
  8
0
  6
Continuous
 62
     1
370
    25
100
AcDbPolyline
 90
       50
 70
   128
 43
0.0
 10
269.6934972138
 20
27.8060795976
 10
269.6945140065
 20
27.8054939458
 10
270.4852889834
 20
27.2870289222
 10
271.2191512267
 20
26.6780726339
 10
271.8929581622
 20
25.9812337635
 10
272.5038240478
 20
25.1994951172
 10
273.0491331447
 20
24.3362044982
 10
273.5265502542
 20
23.3950579752
 10
273.9340312539
 20
22.3800869538
 10
274.2698310011
 20
21.2956368828
 10
274.5325112344
 20
20.1463512834
 10
274.720948477
 20
18.9371525473
 10
274.8343340362
 20
17.6732176966
 10
274.8721832233
 20
16.3599594664
 10
274.8343340362
 20
15.0030014949
 10
274.720948477
 20
13.6081544641
 10
274.5325112344
 20
12.1813907187
 10
274.2698310011
 20
10.7288209775
 10
273.9340312539
 20
9.2566647709
 10
273.5265502542
 20
7.7712262014
 10
273.0491331447
 20
6.2788656168
 10
272.5038240478
 20
4.7859745159
 10
271.8929581622
 20
3.2989451307
 10
271.2191512267
 20
1.8241453319
 10
270.4852889834
 20
0.3678897327
 10
269.6945140065
 20
-1.0635846452
 10
268.850211215
 20
-2.4641480281
 10
267.9559966767
 20
-3.8278041251
 10
267.0157004864
 20
-5.1487129407
 10
266.0333483267
 20
-6.4212181493
 10
265.01314698
 20
-7.6398706686
 10
263.959464572
 20
-8.7994522318
 10
262.8768141082
 20
-9.8949970597
 10
261.7698310833
 20
-10.9218139112
 10
260.6432557008
 20
-11.8755054743
 10
259.501912293
 20
-12.7519893715
 10
258.3506883304
 20
-13.5475102777
 10
257.1945134302
 20
-14.2586626848
 10
256.03833853
 20
-14.8824014035
 10
254.8871145674
 20
-15.4160553922
 10
253.7457711596
 20
-15.8573385442
 10
252.6191957771
 20
-16.2043632312
 10
251.5122127522
 20
-16.4556417752
 10
250.4295622884
 20
-16.6100985659
 10
249.3758798804
 20
-16.6670728158
 10
248.3556785337
 20
-16.6263196991
 10
247.373326374
 20
-16.4880141519
 10
246.4330301837
 20
-16.2527482091
 10
245.5388156454
 20
-15.921530242
 10
244.6955296466
 20
-15.4963637646
  0
LWPOLYLINE
  5
E8
330
1F
100
AcDbEntity
  8
0
  6
Continuous
 62
     1
370
    25
100
AcDbPolyline
 90
       45
 70
   128
 43
0.0
 10
271.7562206148
 20
26.2135914506
 10
271.7726592028
 20
26.1969981287
 10
272.4268968297
 20
25.4590481893
 10
273.0158529395
 20
24.6359211247
 10
273.5369526232
 20
23.7312156869
 10
273.9879159997
 20
22.7488880178
 10
274.3667727039
 20
21.6932330165
 10
274.6718658378
 20
20.5688679888
 10
274.901859873
 20
19.3807079319
 10
275.0557511878
 20
18.1339497531
 10
275.1328654326
 20
16.8340445612
 10
275.1328654326
 20
15.4866764678
 10
275.0557511878
 20
14.097737064
 10
274.901859873
 20
12.6732997551
 10
274.6718658378
 20
11.2195942374
 10
274.3667727039
 20
9.7429761753
 10
273.9879159997
 20
8.2499025341
 10
273.5369526232
 20
6.7469036332
 10
273.0158529395
 20
5.2405493071
 10
272.4268968297
 20
3.7374279921
 10
271.7726592028
 20
2.2441113671
 10
271.0560007761
 20
0.7671307794
 10
270.2800549045
 20
-0.6870562143
 10
269.4482157264
 20
-2.112091702
 10
268.5641210415
 20
-3.5017417505
 10
267.6316345305
 20
-4.8499325248
 10
266.6548352182
 20
-6.1507670181
 10
265.6379950826
 20
-7.3985577489
 10
264.5855586408
 20
-8.5878476724
 10
263.5021297774
 20
-9.7134375555
 10
262.3924447444
 20
-10.770404606
 10
261.2613563563
 20
-11.7541268055
 10
260.1138106118
 20
-12.6603040102
 10
258.9548254552
 20
-13.4849717327
 10
257.7894688599
 20
-14.2245259613
 10
256.6228365404
 20
-14.8757314639
 10
255.4600298501
 20
-15.4357406312
 10
254.3061335962
 20
-15.9021047627
 10
253.1661933821
 20
-16.2727856259
 10
252.045193896
 20
-16.5461603853
 10
250.9480370137
 20
-16.7210357644
 10
249.8795202321
 20
-16.7966452864
 10
248.8443159244
 20
-16.7726597292
 10
247.8469502671
 20
-16.649184081
 10
247.1101660617
 20
-16.4873321696
  0
LWPOLYLINE
  5
E9
330
1F
100
AcDbEntity
  8
0
  6
Continuous
 62
     1
370
    25
100
AcDbPolyline
 90
       36
 70
   128
 43
0.0
 10
295.3603747795
 20
2.4259905457
 10
295.6884497996
 20
2.0665429455
 10
296.1684931845
 20
1.4133694045
 10
296.5803699689
 20
0.6782445123
 10
296.921266192
 20
-0.1338097503
 10
297.1888532405
 20
-1.0172467287
 10
297.3813029948
 20
-1.966031598
 10
297.4973016586
 20
-2.9736824296
 10
297.5360556858
 20
-4.0333169598
 10
297.4973016586
 20
-5.1376959373
 10
297.3813029948
 20
-6.2792759754
 10
297.1888532405
 20
-7.4502586014
 10
296.921266192
 20
-8.6426450097
 10
296.5803699689
 20
-9.8482896737
 10
296.1684931845
 20
-11.0589573789
 10
295.6884497996
 20
-12.2663772147
 10
295.1435180487
 20
-13.462302649
 10
294.5374213424
 20
-14.6385624771
 10
293.8742999501
 20
-15.7871224168
 10
293.1586833409
 20
-16.9001371975
 10
292.3954592321
 20
-17.9700041698
 10
291.5898423084
 20
-18.9894133032
 10
290.7473350385
 20
-19.9514025058
 10
289.8736931013
 20
-20.849399637
 10
288.974883898
 20
-21.6772707927
 10
288.0570473681
 20
-22.4293604161
 10
287.1264535141
 20
-23.1005317884
 10
286.1894589367
 20
-23.6861989645
 10
285.2524643593
 20
-24.1823627001
 10
284.3218705053
 20
-24.5856321215
 10
283.4040339754
 20
-24.8932539988
 10
282.5052247721
 20
-25.1031258604
 10
281.6315828349
 20
-25.2138142394
 10
280.789075565
 20
-25.2245632253
 10
279.9834586413
 20
-25.1352995933
 10
279.5096648437
 20
-25.0312192494
  0
LWPOLYLINE
  5
EA
330
1F
100
AcDbEntity
  8
0
  6
Continuous
 62
     1
370
    25
100
AcDbPolyline
 90
       38
 70
   128
 43
0.0
 10
295.0962009673
 20
2.6922167589
 10
295.4207824087
 20
2.4199500931
 10
295.9641343114
 20
1.8548325946
 10
296.4427861917
 20
1.2035519763
 10
296.8534690349
 20
0.4705580131
 10
297.1933767827
 20
-0.3391429043
 10
297.4601887243
 20
-1.2200189511
 10
297.6520806914
 20
-2.1660535541
 10
297.7677434975
 20
-3.1707835112
 10
297.8063855721
 20
-4.2273464262
 10
297.7677434975
 20
-5.3285245309
 10
297.6520806914
 20
-6.4667959215
 10
297.4601887243
 20
-7.6343842737
 10
297.1933767827
 20
-8.8233148312
 10
296.8534690349
 20
-10.0254648807
 10
296.4427861917
 20
-11.2326231617
 10
295.9641343114
 20
-12.4365434779
 10
295.4207824087
 20
-13.6290017299
 10
294.8164426992
 20
-14.8018525677
 10
294.1552429398
 20
-15.9470841416
 10
293.4417000872
 20
-17.0568728531
 10
292.6806886879
 20
-18.1236381049
 10
291.8774066338
 20
-19.1400924887
 10
291.0373415762
 20
-20.0992931129
 10
290.1662317427
 20
-20.994687037
 10
289.2700277414
 20
-21.8201591767
 10
288.3548517313
 20
-22.5700688026
 10
287.4269551933
 20
-23.2392952116
 10
286.4926765358
 20
-23.8232652417
 10
285.5583978782
 20
-24.3179903889
 10
284.6305013402
 20
-24.7200905189
 10
283.7153253302
 20
-25.026820623
 10
282.8191213289
 20
-25.2360835982
 10
281.9480114953
 20
-25.3464516797
 10
281.1079464377
 20
-25.3571695257
 10
280.3046643836
 20
-25.2681648603
 10
279.5436529844
 20
-25.0800446675
 10
279.1470096516
 20
-24.9355860404
  0
ENDSEC
  0
SECTION
  2
OBJECTS
  0
DICTIONARY
  5
C
330
0
100
AcDbDictionary
281
     1
  3
ACAD_GROUP
350
D
  3
ACAD_LAYOUT
350
1A
  3
ACAD_MLINESTYLE
350
17
  3
ACAD_PLOTSETTINGS
350
19
  3
ACAD_PLOTSTYLENAME
350
E
  3
ACAD_SCALELIST
350
47
  0
DICTIONARY
  5
D
102
{ACAD_REACTORS
330
C
102
}
330
C
100
AcDbDictionary
281
     1
  0
DICTIONARY
  5
1A
102
{ACAD_REACTORS
330
C
102
}
330
C
100
AcDbDictionary
281
     1
  3
Layout1
350
1E
  3
Layout2
350
26
  3
Model
350
22
  0
DICTIONARY
  5
17
102
{ACAD_REACTORS
330
C
102
}
330
C
100
AcDbDictionary
281
     1
  3
Standard
350
18
  0
DICTIONARY
  5
19
102
{ACAD_REACTORS
330
C
102
}
330
C
100
AcDbDictionary
281
     1
  0
ACDBDICTIONARYWDFLT
  5
E
102
{ACAD_REACTORS
330
C
102
}
330
C
100
AcDbDictionary
281
     1
  3
Normal
350
F
100
AcDbDictionaryWithDefault
340
F
  0
DICTIONARY
  5
47
102
{ACAD_REACTORS
330
C
102
}
330
C
100
AcDbDictionary
281
     1
  3
A0
350
48
  3
A1
350
49
  3
A2
350
4A
  3
A3
350
4B
  3
A4
350
4C
  3
A5
350
4D
  3
A6
350
4E
  3
A7
350
4F
  3
A8
350
50
  3
A9
350
51
  3
B0
350
52
  3
B1
350
53
  3
B2
350
54
  3
B3
350
55
  3
B4
350
56
  3
B5
350
57
  3
B6
350
58
  3
B7
350
59
  3
B8
350
5A
  3
B9
350
5B
  3
C0
350
5C
  3
C1
350
5D
  3
C2
350
5E
  3
C3
350
5F
  3
C4
350
60
  3
C5
350
61
  3
C6
350
62
  3
C7
350
63
  3
C8
350
64
  3
C9
350
65
  3
D0
350
66
  3
D1
350
67
  3
D2
350
68
  0
LAYOUT
  5
1E
102
{ACAD_REACTORS
330
1A
102
}
330
1A
100
AcDbPlotSettings
  1

  2
none_device
  4

  6

 40
0.0
 41
0.0
 42
0.0
 43
0.0
 44
0.0
 45
0.0
 46
0.0
 47
0.0
 48
0.0
 49
0.0
140
0.0
141
0.0
142
1.0
143
1.0
 70
   688
 72
     1
 73
     0
 74
     5
  7

 75
    16
147
1.0
148
0.0
149
0.0
100
AcDbLayout
  1
Layout1
 70
     1
 71
     1
 10
0.0
 20
0.0
 11
420.0
 21
297.0
 12
0.0
 22
0.0
 32
0.0
 14
1.0000000000E+20
 24
1.0000000000E+20
 34
1.0000000000E+20
 15
-1.0000000000E+20
 25
-1.0000000000E+20
 35
-1.0000000000E+20
146
0.0
 13
0.0
 23
0.0
 33
0.0
 16
1.0
 26
0.0
 36
0.0
 17
0.0
 27
1.0
 37
0.0
 76
     0
330
1B
  0
LAYOUT
  5
26
102
{ACAD_REACTORS
330
1A
102
}
330
1A
100
AcDbPlotSettings
  1

  2
none_device
  4

  6

 40
0.0
 41
0.0
 42
0.0
 43
0.0
 44
0.0
 45
0.0
 46
0.0
 47
0.0
 48
0.0
 49
0.0
140
0.0
141
0.0
142
1.0
143
1.0
 70
   688
 72
     1
 73
     0
 74
     5
  7

 75
    16
147
1.0
148
0.0
149
0.0
100
AcDbLayout
  1
Layout2
 70
     1
 71
     2
 10
0.0
 20
0.0
 11
0.0
 21
0.0
 12
0.0
 22
0.0
 32
0.0
 14
0.0
 24
0.0
 34
0.0
 15
0.0
 25
0.0
 35
0.0
146
0.0
 13
0.0
 23
0.0
 33
0.0
 16
1.0
 26
0.0
 36
0.0
 17
0.0
 27
1.0
 37
0.0
 76
     0
330
23
  0
LAYOUT
  5
22
102
{ACAD_REACTORS
330
1A
102
}
330
1A
100
AcDbPlotSettings
  1

  2
none_device
  4
Letter_(8.50_x_11.00_Inches)
  6

 40
6.35
 41
6.35
 42
6.35000508
 43
6.35000508
 44
215.9
 45
279.4
 46
0.0
 47
0.0
 48
0.0
 49
0.0
140
0.0
141
0.0
142
1.0
143
1.0
 70
  1712
 72
     1
 73
     0
 74
     0
  7

 75
     0
147
1.0
148
0.0
149
0.0
100
AcDbLayout
  1
Model
 70
     1
 71
     0
 10
0.0
 20
0.0
 11
279.4
 21
215.9
 12
0.0
 22
0.0
 32
0.0
 14
0.0
 24
0.0
 34
0.0
 15
279.4
 25
215.9
 35
0.0
146
0.0
 13
0.0
 23
0.0
 33
0.0
 16
1.0
 26
0.0
 36
0.0
 17
0.0
 27
1.0
 37
0.0
 76
     0
330
1F
331
29
  0
MLINESTYLE
  5
18
102
{ACAD_REACTORS
330
17
102
}
330
17
100
AcDbMlineStyle
  2
Standard
 70
     0
  3

 62
   256
 51
90.0
 52
90.0
 71
     2
 49
0.5
 62
   256
  6
BYLAYER
 49
-0.5
 62
   256
  6
BYLAYER
  0
ACDBPLACEHOLDER
  5
F
102
{ACAD_REACTORS
330
E
102
}
330
E
  0
SCALE
  5
48
102
{ACAD_REACTORS
330
47
102
}
330
47
100
AcDbScale
 70
     0
300
1:1
140
1.0
141
1.0
290
     1
  0
SCALE
  5
49
102
{ACAD_REACTORS
330
47
102
}
330
47
100
AcDbScale
 70
     0
300
1:2
140
1.0
141
2.0
290
     0
  0
SCALE
  5
4A
102
{ACAD_REACTORS
330
47
102
}
330
47
100
AcDbScale
 70
     0
300
1:4
140
1.0
141
4.0
290
     0
  0
SCALE
  5
4B
102
{ACAD_REACTORS
330
47
102
}
330
47
100
AcDbScale
 70
     0
300
1:5
140
1.0
141
5.0
290
     0
  0
SCALE
  5
4C
102
{ACAD_REACTORS
330
47
102
}
330
47
100
AcDbScale
 70
     0
300
1:8
140
1.0
141
8.0
290
     0
  0
SCALE
  5
4D
102
{ACAD_REACTORS
330
47
102
}
330
47
100
AcDbScale
 70
     0
300
1:10
140
1.0
141
10.0
290
     0
  0
SCALE
  5
4E
102
{ACAD_REACTORS
330
47
102
}
330
47
100
AcDbScale
 70
     0
300
1:16
140
1.0
141
16.0
290
     0
  0
SCALE
  5
4F
102
{ACAD_REACTORS
330
47
102
}
330
47
100
AcDbScale
 70
     0
300
1:20
140
1.0
141
20.0
290
     0
  0
SCALE
  5
50
102
{ACAD_REACTORS
330
47
102
}
330
47
100
AcDbScale
 70
     0
300
1:30
140
1.0
141
30.0
290
     0
  0
SCALE
  5
51
102
{ACAD_REACTORS
330
47
102
}
330
47
100
AcDbScale
 70
     0
300
1:40
140
1.0
141
40.0
290
     0
  0
SCALE
  5
52
102
{ACAD_REACTORS
330
47
102
}
330
47
100
AcDbScale
 70
     0
300
1:50
140
1.0
141
50.0
290
     0
  0
SCALE
  5
53
102
{ACAD_REACTORS
330
47
102
}
330
47
100
AcDbScale
 70
     0
300
1:100
140
1.0
141
100.0
290
     0
  0
SCALE
  5
54
102
{ACAD_REACTORS
330
47
102
}
330
47
100
AcDbScale
 70
     0
300
2:1
140
2.0
141
1.0
290
     0
  0
SCALE
  5
55
102
{ACAD_REACTORS
330
47
102
}
330
47
100
AcDbScale
 70
     0
300
4:1
140
4.0
141
1.0
290
     0
  0
SCALE
  5
56
102
{ACAD_REACTORS
330
47
102
}
330
47
100
AcDbScale
 70
     0
300
8:1
140
8.0
141
1.0
290
     0
  0
SCALE
  5
57
102
{ACAD_REACTORS
330
47
102
}
330
47
100
AcDbScale
 70
     0
300
10:1
140
10.0
141
1.0
290
     0
  0
SCALE
  5
58
102
{ACAD_REACTORS
330
47
102
}
330
47
100
AcDbScale
 70
     0
300
100:1
140
100.0
141
1.0
290
     0
  0
SCALE
  5
59
102
{ACAD_REACTORS
330
47
102
}
330
47
100
AcDbScale
 70
     0
300
1/128" = 1'-0"
140
0.0078125
141
12.0
290
     0
  0
SCALE
  5
5A
102
{ACAD_REACTORS
330
47
102
}
330
47
100
AcDbScale
 70
     0
300
1/64" = 1'-0"
140
0.015625
141
12.0
290
     0
  0
SCALE
  5
5B
102
{ACAD_REACTORS
330
47
102
}
330
47
100
AcDbScale
 70
     0
300
1/32" = 1'-0"
140
0.03125
141
12.0
290
     0
  0
SCALE
  5
5C
102
{ACAD_REACTORS
330
47
102
}
330
47
100
AcDbScale
 70
     0
300
1/16" = 1'-0"
140
0.0625
141
12.0
290
     0
  0
SCALE
  5
5D
102
{ACAD_REACTORS
330
47
102
}
330
47
100
AcDbScale
 70
     0
300
3/32" = 1'-0"
140
0.09375
141
12.0
290
     0
  0
SCALE
  5
5E
102
{ACAD_REACTORS
330
47
102
}
330
47
100
AcDbScale
 70
     0
300
1/8" = 1'-0"
140
0.125
141
12.0
290
     0
  0
SCALE
  5
5F
102
{ACAD_REACTORS
330
47
102
}
330
47
100
AcDbScale
 70
     0
300
3/16" = 1'-0"
140
0.1875
141
12.0
290
     0
  0
SCALE
  5
60
102
{ACAD_REACTORS
330
47
102
}
330
47
100
AcDbScale
 70
     0
300
1/4" = 1'-0"
140
0.25
141
12.0
290
     0
  0
SCALE
  5
61
102
{ACAD_REACTORS
330
47
102
}
330
47
100
AcDbScale
 70
     0
300
3/8" = 1'-0"
140
0.375
141
12.0
290
     0
  0
SCALE
  5
62
102
{ACAD_REACTORS
330
47
102
}
330
47
100
AcDbScale
 70
     0
300
1/2" = 1'-0"
140
0.5
141
12.0
290
     0
  0
SCALE
  5
63
102
{ACAD_REACTORS
330
47
102
}
330
47
100
AcDbScale
 70
     0
300
3/4" = 1'-0"
140
0.75
141
12.0
290
     0
  0
SCALE
  5
64
102
{ACAD_REACTORS
330
47
102
}
330
47
100
AcDbScale
 70
     0
300
1" = 1'-0"
140
1.0
141
12.0
290
     0
  0
SCALE
  5
65
102
{ACAD_REACTORS
330
47
102
}
330
47
100
AcDbScale
 70
     0
300
1-1/2" = 1'-0"
140
1.5
141
12.0
290
     0
  0
SCALE
  5
66
102
{ACAD_REACTORS
330
47
102
}
330
47
100
AcDbScale
 70
     0
300
3" = 1'-0"
140
3.0
141
12.0
290
     0
  0
SCALE
  5
67
102
{ACAD_REACTORS
330
47
102
}
330
47
100
AcDbScale
 70
     0
300
6" = 1'-0"
140
6.0
141
12.0
290
     0
  0
SCALE
  5
68
102
{ACAD_REACTORS
330
47
102
}
330
47
100
AcDbScale
 70
     0
300
1'-0" = 1'-0"
140
12.0
141
12.0
290
     0
  0
ENDSEC
  0
EOF
